Gabariro do Exercicio de débito e Credito - Gestão financeira e Gestão Comercial - FlF

Ver o tópico anterior Ver o tópico seguinte Ir em baixo

Gabariro do Exercicio de débito e Credito - Gestão financeira e Gestão Comercial - FlF

Mensagem  Admin em Sex Fev 04, 2011 9:45 am

I love you Gabarito do exercício de Debito e Credito ;
Lançamentos no Diário[table border="1"]


nº 1) Aquiraz , 1º de outubro de 19X9 $
D- Capital $ 100.000
C- |Caixa ( CD.s)--------- $ 50.000
C- Caixa ( Poupança ) ----------- $ 50.000
--------------- 1---------------
nº 2)
D- Caixa $ 50.000
C- Capital $ 50.000
--------------- 1---------------
nº 3)
D- Alugueis $ 36.000
C- Caixa $36.000

---------------15---------------
nº 4)
D- Mercadoria $$ 10.000
C- Caixa $ 3.000
C- Bc\M $ 3.000

---------------20---------------
nº 5)
D- Móveis e Utensílios $1.000
C- Caixa $1.000

---------------22---------------
nº 6)
D- Bc/ M $ 500
C- Caixa $ 500

---------------25---------------
nº 7)
D-Caixa $ 15.000
C-Empréstimos a Pagar $ 15.000

---------------27---------------
Cool
D -Instalações $ 5.000
C- Bancos – c/ Movimento $ 5.000

---------------30---------------
nº 9)
D- Marcadoria $ 10.000
C- Dupl. Pagar $ 10.000

--------------- ---------------
nº 10)
D- Alluguel $ 3.000
C-B c/ M $ 3.000

--------------- 5---------------
nº 11)
D- Imobilizado ( computador ) $ 1.000
C- B c/ M $ 1.000

---------------10---------------
nº 12)
D- Caixa $ 30.000
C- Capital $ 30.000
---------------15---------------
nº 13)
D- Mercadoria $ 8.000
C- Caixa $ 8.000

---------------25---------------
nº 14)
D- Veículos( Moto ) $ 11.000
C- Caixa $ 11.000

---------------30---------------
nº 15)
D- Duplicatas a Pagar $ 7.000
C- Caixa $ 7.000

--------------- ---------------
nº 16)

D- Aluguel $ 3.000
C- Caixa $ 3.000

--------------- 5---------------
nº 17)
D- Imovel $ 15.000
C- Caixa $ 15.000
---------------10---------------
nº 18)
D- Mercadoria $ 2.000
C- Caixa $ 2.000

---------------15---------------


nº 19)
D-Caixa $ 20.000
C-Receita de venda de mercadoria $ 20.000

---------------20---------------
nº 20)
D- Fornecedores $ 10.000
C- Caixa $ 10.000

---------------23---------------
nº 21)
D- Mercadorias $ 15.000
C- Fornecedores $ 15.000

---------------29---------------
nº 22)
D- Aluguel $ 3.000
C- Caixa $ 3.000
--------------- ---------------


[code]
avatar
Admin
Admin

Mensagens : 21
Data de inscrição : 29/01/2011

Ver perfil do usuário http://professoraeunice.forumeiros.com

Voltar ao Topo Ir em baixo

Ver o tópico anterior Ver o tópico seguinte Voltar ao Topo

- Tópicos similares

 
Permissão deste fórum:
Você não pode responder aos tópicos neste fórum